ISO-10303-21;
HEADER;
/* Generated by software containing ST-Developer
 * from STEP Tools, Inc. (www.steptools.com) 
 */

FILE_DESCRIPTION(
/* description */ (''),
/* implementation_level */ '2;1');

FILE_NAME(
/* name */ 'ER_simple v1.step',
/* time_stamp */ '2024-01-16T13:45:44+01:00',
/* author */ (''),
/* organization */ (''),
/* preprocessor_version */ 'ST-DEVELOPER v20',
/* originating_system */ 'Autodesk Translation Framework v12.14.0.127',

/* authorisation */ '');

FILE_SCHEMA (('AUTOMOTIVE_DESIGN { 1 0 10303 214 3 1 1 }'));
ENDSEC;

DATA;
#10=MECHANICAL_DESIGN_GEOMETRIC_PRESENTATION_REPRESENTATION('',(#13,#14),
#190);
#11=SHAPE_REPRESENTATION_RELATIONSHIP('SRR','None',#197,#12);
#12=ADVANCED_BREP_SHAPE_REPRESENTATION('',(#15,#16),#189);
#13=STYLED_ITEM('',(#207),#15);
#14=STYLED_ITEM('',(#208),#16);
#15=MANIFOLD_SOLID_BREP('K\X\F6rper1',#99);
#16=MANIFOLD_SOLID_BREP('K\X\F6rper2',#100);
#17=CONICAL_SURFACE('',#118,140.,0.902300424382692);
#18=PLANE('',#117);
#19=PLANE('',#122);
#20=PLANE('',#126);
#21=PLANE('',#127);
#22=FACE_OUTER_BOUND('',#30,.T.);
#23=FACE_OUTER_BOUND('',#31,.T.);
#24=FACE_OUTER_BOUND('',#32,.T.);
#25=FACE_OUTER_BOUND('',#33,.T.);
#26=FACE_OUTER_BOUND('',#34,.T.);
#27=FACE_OUTER_BOUND('',#35,.T.);
#28=FACE_OUTER_BOUND('',#36,.T.);
#29=FACE_OUTER_BOUND('',#37,.T.);
#30=EDGE_LOOP('',(#68,#69,#70,#71));
#31=EDGE_LOOP('',(#72));
#32=EDGE_LOOP('',(#73,#74,#75,#76));
#33=EDGE_LOOP('',(#77,#78,#79,#80));
#34=EDGE_LOOP('',(#81));
#35=EDGE_LOOP('',(#82,#83,#84,#85));
#36=EDGE_LOOP('',(#86));
#37=EDGE_LOOP('',(#87));
#38=LINE('',#167,#42);
#39=LINE('',#173,#43);
#40=LINE('',#176,#44);
#41=LINE('',#183,#45);
#42=VECTOR('',#134,140.);
#43=VECTOR('',#143,140.);
#44=VECTOR('',#146,100.75);
#45=VECTOR('',#155,140.);
#46=CIRCLE('',#115,140.);
#47=CIRCLE('',#116,140.);
#48=CIRCLE('',#119,100.75);
#49=CIRCLE('',#121,100.75);
#50=CIRCLE('',#124,140.);
#51=CIRCLE('',#125,140.);
#52=VERTEX_POINT('',#164);
#53=VERTEX_POINT('',#166);
#54=VERTEX_POINT('',#171);
#55=VERTEX_POINT('',#175);
#56=VERTEX_POINT('',#180);
#57=VERTEX_POINT('',#182);
#58=EDGE_CURVE('',#52,#52,#46,.T.);
#59=EDGE_CURVE('',#52,#53,#38,.T.);
#60=EDGE_CURVE('',#53,#53,#47,.T.);
#61=EDGE_CURVE('',#54,#54,#48,.T.);
#62=EDGE_CURVE('',#54,#53,#39,.T.);
#63=EDGE_CURVE('',#54,#55,#40,.T.);
#64=EDGE_CURVE('',#55,#55,#49,.T.);
#65=EDGE_CURVE('',#56,#56,#50,.T.);
#66=EDGE_CURVE('',#56,#57,#41,.T.);
#67=EDGE_CURVE('',#57,#57,#51,.T.);
#68=ORIENTED_EDGE('',*,*,#58,.F.);
#69=ORIENTED_EDGE('',*,*,#59,.T.);
#70=ORIENTED_EDGE('',*,*,#60,.F.);
#71=ORIENTED_EDGE('',*,*,#59,.F.);
#72=ORIENTED_EDGE('',*,*,#58,.T.);
#73=ORIENTED_EDGE('',*,*,#61,.T.);
#74=ORIENTED_EDGE('',*,*,#62,.T.);
#75=ORIENTED_EDGE('',*,*,#60,.T.);
#76=ORIENTED_EDGE('',*,*,#62,.F.);
#77=ORIENTED_EDGE('',*,*,#61,.F.);
#78=ORIENTED_EDGE('',*,*,#63,.T.);
#79=ORIENTED_EDGE('',*,*,#64,.T.);
#80=ORIENTED_EDGE('',*,*,#63,.F.);
#81=ORIENTED_EDGE('',*,*,#64,.F.);
#82=ORIENTED_EDGE('',*,*,#65,.F.);
#83=ORIENTED_EDGE('',*,*,#66,.T.);
#84=ORIENTED_EDGE('',*,*,#67,.T.);
#85=ORIENTED_EDGE('',*,*,#66,.F.);
#86=ORIENTED_EDGE('',*,*,#65,.T.);
#87=ORIENTED_EDGE('',*,*,#67,.F.);
#88=CYLINDRICAL_SURFACE('',#114,140.);
#89=CYLINDRICAL_SURFACE('',#120,100.75);
#90=CYLINDRICAL_SURFACE('',#123,140.);
#91=ADVANCED_FACE('',(#22),#88,.T.);
#92=ADVANCED_FACE('',(#23),#18,.F.);
#93=ADVANCED_FACE('',(#24),#17,.T.);
#94=ADVANCED_FACE('',(#25),#89,.T.);
#95=ADVANCED_FACE('',(#26),#19,.F.);
#96=ADVANCED_FACE('',(#27),#90,.T.);
#97=ADVANCED_FACE('',(#28),#20,.F.);
#98=ADVANCED_FACE('',(#29),#21,.T.);
#99=CLOSED_SHELL('',(#91,#92,#93,#94,#95));
#100=CLOSED_SHELL('',(#96,#97,#98));
#101=DERIVED_UNIT_ELEMENT(#103,1.);
#102=DERIVED_UNIT_ELEMENT(#192,-3.);
#103=(
MASS_UNIT()
NAMED_UNIT(*)
SI_UNIT(.KILO.,.GRAM.)
);
#104=DERIVED_UNIT((#101,#102));
#105=MEASURE_REPRESENTATION_ITEM('density measure',
POSITIVE_RATIO_MEASURE(7850.),#104);
#106=PROPERTY_DEFINITION_REPRESENTATION(#111,#108);
#107=PROPERTY_DEFINITION_REPRESENTATION(#112,#109);
#108=REPRESENTATION('material name',(#110),#189);
#109=REPRESENTATION('density',(#105),#189);
#110=DESCRIPTIVE_REPRESENTATION_ITEM('Stahl','Stahl');
#111=PROPERTY_DEFINITION('material property','material name',#199);
#112=PROPERTY_DEFINITION('material property','density of part',#199);
#113=AXIS2_PLACEMENT_3D('',#162,#128,#129);
#114=AXIS2_PLACEMENT_3D('',#163,#130,#131);
#115=AXIS2_PLACEMENT_3D('',#165,#132,#133);
#116=AXIS2_PLACEMENT_3D('',#168,#135,#136);
#117=AXIS2_PLACEMENT_3D('',#169,#137,#138);
#118=AXIS2_PLACEMENT_3D('',#170,#139,#140);
#119=AXIS2_PLACEMENT_3D('',#172,#141,#142);
#120=AXIS2_PLACEMENT_3D('',#174,#144,#145);
#121=AXIS2_PLACEMENT_3D('',#177,#147,#148);
#122=AXIS2_PLACEMENT_3D('',#178,#149,#150);
#123=AXIS2_PLACEMENT_3D('',#179,#151,#152);
#124=AXIS2_PLACEMENT_3D('',#181,#153,#154);
#125=AXIS2_PLACEMENT_3D('',#184,#156,#157);
#126=AXIS2_PLACEMENT_3D('',#185,#158,#159);
#127=AXIS2_PLACEMENT_3D('',#186,#160,#161);
#128=DIRECTION('axis',(0.,0.,1.));
#129=DIRECTION('refdir',(1.,0.,0.));
#130=DIRECTION('center_axis',(0.,0.,1.));
#131=DIRECTION('ref_axis',(1.,0.,0.));
#132=DIRECTION('center_axis',(0.,0.,1.));
#133=DIRECTION('ref_axis',(1.,0.,0.));
#134=DIRECTION('',(0.,0.,-1.));
#135=DIRECTION('center_axis',(0.,0.,-1.));
#136=DIRECTION('ref_axis',(1.,0.,0.));
#137=DIRECTION('center_axis',(0.,0.,-1.));
#138=DIRECTION('ref_axis',(-1.,0.,0.));
#139=DIRECTION('center_axis',(0.,0.,1.));
#140=DIRECTION('ref_axis',(1.,0.,0.));
#141=DIRECTION('center_axis',(0.,0.,1.));
#142=DIRECTION('ref_axis',(1.,0.,0.));
#143=DIRECTION('',(-0.784754802430376,9.61047456911874E-17,0.619806340773036));
#144=DIRECTION('center_axis',(0.,0.,1.));
#145=DIRECTION('ref_axis',(1.,0.,0.));
#146=DIRECTION('',(0.,0.,-1.));
#147=DIRECTION('center_axis',(0.,0.,1.));
#148=DIRECTION('ref_axis',(1.,0.,0.));
#149=DIRECTION('center_axis',(0.,0.,1.));
#150=DIRECTION('ref_axis',(1.,0.,0.));
#151=DIRECTION('center_axis',(0.,0.,1.));
#152=DIRECTION('ref_axis',(1.,0.,0.));
#153=DIRECTION('center_axis',(0.,0.,1.));
#154=DIRECTION('ref_axis',(1.,0.,0.));
#155=DIRECTION('',(0.,0.,-1.));
#156=DIRECTION('center_axis',(0.,0.,1.));
#157=DIRECTION('ref_axis',(1.,0.,0.));
#158=DIRECTION('center_axis',(0.,0.,-1.));
#159=DIRECTION('ref_axis',(-1.,0.,0.));
#160=DIRECTION('center_axis',(0.,0.,-1.));
#161=DIRECTION('ref_axis',(-1.,0.,0.));
#162=CARTESIAN_POINT('',(0.,0.,0.));
#163=CARTESIAN_POINT('Origin',(0.,0.,40.35));
#164=CARTESIAN_POINT('',(-140.,-1.71450551880629E-14,61.1));
#165=CARTESIAN_POINT('Origin',(0.,0.,61.1));
#166=CARTESIAN_POINT('',(-140.,-1.71450551880629E-14,40.35));
#167=CARTESIAN_POINT('',(-140.,-1.71450551880629E-14,40.35));
#168=CARTESIAN_POINT('Origin',(0.,0.,40.35));
#169=CARTESIAN_POINT('Origin',(0.,0.,61.1));
#170=CARTESIAN_POINT('Origin',(0.,0.,40.35));
#171=CARTESIAN_POINT('',(-100.75,1.23383165014096E-14,9.35));
#172=CARTESIAN_POINT('Origin',(0.,0.,9.35));
#173=CARTESIAN_POINT('',(-140.,1.71450551880629E-14,40.35));
#174=CARTESIAN_POINT('Origin',(0.,0.,0.));
#175=CARTESIAN_POINT('',(-100.75,-1.23383165014096E-14,0.));
#176=CARTESIAN_POINT('',(-100.75,-1.23383165014096E-14,0.));
#177=CARTESIAN_POINT('Origin',(0.,0.,0.));
#178=CARTESIAN_POINT('Origin',(0.,0.,0.));
#179=CARTESIAN_POINT('Origin',(0.,0.,61.1));
#180=CARTESIAN_POINT('',(-140.,-1.71450551880629E-14,71.35));
#181=CARTESIAN_POINT('Origin',(0.,0.,71.35));
#182=CARTESIAN_POINT('',(-140.,-1.71450551880629E-14,61.1));
#183=CARTESIAN_POINT('',(-140.,-1.71450551880629E-14,61.1));
#184=CARTESIAN_POINT('Origin',(0.,0.,61.1));
#185=CARTESIAN_POINT('Origin',(0.,0.,71.35));
#186=CARTESIAN_POINT('Origin',(0.,0.,61.1));
#187=UNCERTAINTY_MEASURE_WITH_UNIT(LENGTH_MEASURE(0.01),#191,
'DISTANCE_ACCURACY_VALUE',
'Maximum model space distance between geometric entities at asserted c
onnectivities');
#188=UNCERTAINTY_MEASURE_WITH_UNIT(LENGTH_MEASURE(0.01),#191,
'DISTANCE_ACCURACY_VALUE',
'Maximum model space distance between geometric entities at asserted c
onnectivities');
#189=(
GEOMETRIC_REPRESENTATION_CONTEXT(3)
GLOBAL_UNCERTAINTY_ASSIGNED_CONTEXT((#187))
GLOBAL_UNIT_ASSIGNED_CONTEXT((#191,#193,#194))
REPRESENTATION_CONTEXT('','3D')
);
#190=(
GEOMETRIC_REPRESENTATION_CONTEXT(3)
GLOBAL_UNCERTAINTY_ASSIGNED_CONTEXT((#188))
GLOBAL_UNIT_ASSIGNED_CONTEXT((#191,#193,#194))
REPRESENTATION_CONTEXT('','3D')
);
#191=(
LENGTH_UNIT()
NAMED_UNIT(*)
SI_UNIT(.MILLI.,.METRE.)
);
#192=(
LENGTH_UNIT()
NAMED_UNIT(*)
SI_UNIT($,.METRE.)
);
#193=(
NAMED_UNIT(*)
PLANE_ANGLE_UNIT()
SI_UNIT($,.RADIAN.)
);
#194=(
NAMED_UNIT(*)
SI_UNIT($,.STERADIAN.)
SOLID_ANGLE_UNIT()
);
#195=SHAPE_DEFINITION_REPRESENTATION(#196,#197);
#196=PRODUCT_DEFINITION_SHAPE('',$,#199);
#197=SHAPE_REPRESENTATION('',(#113),#189);
#198=PRODUCT_DEFINITION_CONTEXT('part definition',#203,'design');
#199=PRODUCT_DEFINITION('ER_simple','ER_simple v1',#200,#198);
#200=PRODUCT_DEFINITION_FORMATION('',$,#205);
#201=PRODUCT_RELATED_PRODUCT_CATEGORY('ER_simple v1','ER_simple v1',(#205));
#202=APPLICATION_PROTOCOL_DEFINITION('international standard',
'automotive_design',2009,#203);
#203=APPLICATION_CONTEXT(
'Core Data for Automotive Mechanical Design Process');
#204=PRODUCT_CONTEXT('part definition',#203,'mechanical');
#205=PRODUCT('ER_simple','ER_simple v1',$,(#204));
#206=PRESENTATION_STYLE_ASSIGNMENT((#209));
#207=PRESENTATION_STYLE_ASSIGNMENT((#210));
#208=PRESENTATION_STYLE_ASSIGNMENT((#211));
#209=SURFACE_STYLE_USAGE(.BOTH.,#212);
#210=SURFACE_STYLE_USAGE(.BOTH.,#213);
#211=SURFACE_STYLE_USAGE(.BOTH.,#214);
#212=SURFACE_SIDE_STYLE('',(#215));
#213=SURFACE_SIDE_STYLE('',(#216));
#214=SURFACE_SIDE_STYLE('',(#217));
#215=SURFACE_STYLE_FILL_AREA(#218);
#216=SURFACE_STYLE_FILL_AREA(#219);
#217=SURFACE_STYLE_FILL_AREA(#220);
#218=FILL_AREA_STYLE('Stahl - satiniert',(#221));
#219=FILL_AREA_STYLE('Kunststoff - matt (Wei\X\DF)',(#222));
#220=FILL_AREA_STYLE('ABS (Wei\X\DF)',(#223));
#221=FILL_AREA_STYLE_COLOUR('Stahl - satiniert',#224);
#222=FILL_AREA_STYLE_COLOUR('Kunststoff - matt (Wei\X\DF)',#225);
#223=FILL_AREA_STYLE_COLOUR('ABS (Wei\X\DF)',#226);
#224=COLOUR_RGB('Stahl - satiniert',0.627450980392157,0.627450980392157,
0.627450980392157);
#225=COLOUR_RGB('Kunststoff - matt (Wei\X\DF)',0.964705882352941,0.964705882352941,
0.952941176470588);
#226=COLOUR_RGB('ABS (Wei\X\DF)',0.964705882352941,0.964705882352941,0.952941176470588);
ENDSEC;
END-ISO-10303-21;
