ISO-10303-21;
HEADER;
/* Generated by software containing ST-Developer
 * from STEP Tools, Inc. (www.steptools.com) 
 */

FILE_DESCRIPTION(
/* description */ (''),
/* implementation_level */ '2;1');

FILE_NAME(
/* name */ 'F1_simple.step',
/* time_stamp */ '2023-08-29T10:48:23+02:00',
/* author */ (''),
/* organization */ (''),
/* preprocessor_version */ 'ST-DEVELOPER v20',
/* originating_system */ 'Autodesk Translation Framework v12.9.0.99',
/* authorisation */ '');

FILE_SCHEMA (('AUTOMOTIVE_DESIGN { 1 0 10303 214 3 1 1 }'));
ENDSEC;

DATA;
#10=MECHANICAL_DESIGN_GEOMETRIC_PRESENTATION_REPRESENTATION('',(#19,#20),
#338);
#11=SHAPE_REPRESENTATION_RELATIONSHIP('SRR','None',#345,#12);
#12=ADVANCED_BREP_SHAPE_REPRESENTATION('',(#21,#22),#337);
#13=CIRCLE('',#219,466.687824229641);
#14=CIRCLE('',#220,466.687824229641);
#15=CIRCLE('',#222,466.687824229641);
#16=CIRCLE('',#223,466.687824229641);
#17=CYLINDRICAL_SURFACE('',#218,466.687824229641);
#18=CYLINDRICAL_SURFACE('',#221,466.687824229641);
#19=STYLED_ITEM('',(#355),#21);
#20=STYLED_ITEM('',(#356),#22);
#21=MANIFOLD_SOLID_BREP('K\X\F6rper1',#197);
#22=MANIFOLD_SOLID_BREP('K\X\F6rper2',#198);
#23=FACE_OUTER_BOUND('',#35,.T.);
#24=FACE_OUTER_BOUND('',#36,.T.);
#25=FACE_OUTER_BOUND('',#37,.T.);
#26=FACE_OUTER_BOUND('',#38,.T.);
#27=FACE_OUTER_BOUND('',#39,.T.);
#28=FACE_OUTER_BOUND('',#40,.T.);
#29=FACE_OUTER_BOUND('',#41,.T.);
#30=FACE_OUTER_BOUND('',#42,.T.);
#31=FACE_OUTER_BOUND('',#43,.T.);
#32=FACE_OUTER_BOUND('',#44,.T.);
#33=FACE_OUTER_BOUND('',#45,.T.);
#34=FACE_OUTER_BOUND('',#46,.T.);
#35=EDGE_LOOP('',(#127,#128,#129,#130));
#36=EDGE_LOOP('',(#131,#132,#133,#134));
#37=EDGE_LOOP('',(#135,#136,#137,#138));
#38=EDGE_LOOP('',(#139,#140,#141,#142));
#39=EDGE_LOOP('',(#143,#144,#145,#146));
#40=EDGE_LOOP('',(#147,#148,#149,#150));
#41=EDGE_LOOP('',(#151,#152,#153,#154));
#42=EDGE_LOOP('',(#155,#156,#157,#158));
#43=EDGE_LOOP('',(#159,#160,#161,#162));
#44=EDGE_LOOP('',(#163,#164,#165,#166));
#45=EDGE_LOOP('',(#167,#168,#169,#170));
#46=EDGE_LOOP('',(#171,#172,#173,#174));
#47=LINE('',#286,#67);
#48=LINE('',#288,#68);
#49=LINE('',#290,#69);
#50=LINE('',#291,#70);
#51=LINE('',#294,#71);
#52=LINE('',#296,#72);
#53=LINE('',#297,#73);
#54=LINE('',#300,#74);
#55=LINE('',#302,#75);
#56=LINE('',#303,#76);
#57=LINE('',#305,#77);
#58=LINE('',#306,#78);
#59=LINE('',#314,#79);
#60=LINE('',#317,#80);
#61=LINE('',#323,#81);
#62=LINE('',#326,#82);
#63=LINE('',#328,#83);
#64=LINE('',#329,#84);
#65=LINE('',#331,#85);
#66=LINE('',#332,#86);
#67=VECTOR('',#232,10.);
#68=VECTOR('',#233,10.);
#69=VECTOR('',#234,10.);
#70=VECTOR('',#235,10.);
#71=VECTOR('',#238,10.);
#72=VECTOR('',#239,10.);
#73=VECTOR('',#240,10.);
#74=VECTOR('',#243,10.);
#75=VECTOR('',#244,10.);
#76=VECTOR('',#245,10.);
#77=VECTOR('',#248,10.);
#78=VECTOR('',#249,10.);
#79=VECTOR('',#258,10.);
#80=VECTOR('',#261,10.);
#81=VECTOR('',#266,10.);
#82=VECTOR('',#269,10.);
#83=VECTOR('',#272,10.);
#84=VECTOR('',#273,10.);
#85=VECTOR('',#276,10.);
#86=VECTOR('',#277,10.);
#87=VERTEX_POINT('',#284);
#88=VERTEX_POINT('',#285);
#89=VERTEX_POINT('',#287);
#90=VERTEX_POINT('',#289);
#91=VERTEX_POINT('',#293);
#92=VERTEX_POINT('',#295);
#93=VERTEX_POINT('',#299);
#94=VERTEX_POINT('',#301);
#95=VERTEX_POINT('',#310);
#96=VERTEX_POINT('',#311);
#97=VERTEX_POINT('',#313);
#98=VERTEX_POINT('',#315);
#99=VERTEX_POINT('',#319);
#100=VERTEX_POINT('',#320);
#101=VERTEX_POINT('',#322);
#102=VERTEX_POINT('',#324);
#103=EDGE_CURVE('',#87,#88,#47,.T.);
#104=EDGE_CURVE('',#88,#89,#48,.T.);
#105=EDGE_CURVE('',#90,#89,#49,.T.);
#106=EDGE_CURVE('',#87,#90,#50,.T.);
#107=EDGE_CURVE('',#91,#87,#51,.T.);
#108=EDGE_CURVE('',#92,#90,#52,.T.);
#109=EDGE_CURVE('',#91,#92,#53,.T.);
#110=EDGE_CURVE('',#93,#91,#54,.T.);
#111=EDGE_CURVE('',#94,#92,#55,.T.);
#112=EDGE_CURVE('',#93,#94,#56,.T.);
#113=EDGE_CURVE('',#88,#93,#57,.T.);
#114=EDGE_CURVE('',#89,#94,#58,.T.);
#115=EDGE_CURVE('',#95,#96,#13,.T.);
#116=EDGE_CURVE('',#97,#95,#59,.T.);
#117=EDGE_CURVE('',#98,#97,#14,.T.);
#118=EDGE_CURVE('',#96,#98,#60,.T.);
#119=EDGE_CURVE('',#99,#100,#15,.T.);
#120=EDGE_CURVE('',#99,#101,#61,.T.);
#121=EDGE_CURVE('',#102,#101,#16,.T.);
#122=EDGE_CURVE('',#100,#102,#62,.T.);
#123=EDGE_CURVE('',#102,#97,#63,.T.);
#124=EDGE_CURVE('',#101,#98,#64,.T.);
#125=EDGE_CURVE('',#95,#100,#65,.T.);
#126=EDGE_CURVE('',#96,#99,#66,.T.);
#127=ORIENTED_EDGE('',*,*,#103,.T.);
#128=ORIENTED_EDGE('',*,*,#104,.T.);
#129=ORIENTED_EDGE('',*,*,#105,.F.);
#130=ORIENTED_EDGE('',*,*,#106,.F.);
#131=ORIENTED_EDGE('',*,*,#107,.T.);
#132=ORIENTED_EDGE('',*,*,#106,.T.);
#133=ORIENTED_EDGE('',*,*,#108,.F.);
#134=ORIENTED_EDGE('',*,*,#109,.F.);
#135=ORIENTED_EDGE('',*,*,#110,.T.);
#136=ORIENTED_EDGE('',*,*,#109,.T.);
#137=ORIENTED_EDGE('',*,*,#111,.F.);
#138=ORIENTED_EDGE('',*,*,#112,.F.);
#139=ORIENTED_EDGE('',*,*,#113,.T.);
#140=ORIENTED_EDGE('',*,*,#112,.T.);
#141=ORIENTED_EDGE('',*,*,#114,.F.);
#142=ORIENTED_EDGE('',*,*,#104,.F.);
#143=ORIENTED_EDGE('',*,*,#114,.T.);
#144=ORIENTED_EDGE('',*,*,#111,.T.);
#145=ORIENTED_EDGE('',*,*,#108,.T.);
#146=ORIENTED_EDGE('',*,*,#105,.T.);
#147=ORIENTED_EDGE('',*,*,#113,.F.);
#148=ORIENTED_EDGE('',*,*,#103,.F.);
#149=ORIENTED_EDGE('',*,*,#107,.F.);
#150=ORIENTED_EDGE('',*,*,#110,.F.);
#151=ORIENTED_EDGE('',*,*,#115,.F.);
#152=ORIENTED_EDGE('',*,*,#116,.F.);
#153=ORIENTED_EDGE('',*,*,#117,.F.);
#154=ORIENTED_EDGE('',*,*,#118,.F.);
#155=ORIENTED_EDGE('',*,*,#119,.F.);
#156=ORIENTED_EDGE('',*,*,#120,.T.);
#157=ORIENTED_EDGE('',*,*,#121,.F.);
#158=ORIENTED_EDGE('',*,*,#122,.F.);
#159=ORIENTED_EDGE('',*,*,#123,.F.);
#160=ORIENTED_EDGE('',*,*,#121,.T.);
#161=ORIENTED_EDGE('',*,*,#124,.T.);
#162=ORIENTED_EDGE('',*,*,#117,.T.);
#163=ORIENTED_EDGE('',*,*,#125,.F.);
#164=ORIENTED_EDGE('',*,*,#115,.T.);
#165=ORIENTED_EDGE('',*,*,#126,.T.);
#166=ORIENTED_EDGE('',*,*,#119,.T.);
#167=ORIENTED_EDGE('',*,*,#122,.T.);
#168=ORIENTED_EDGE('',*,*,#123,.T.);
#169=ORIENTED_EDGE('',*,*,#116,.T.);
#170=ORIENTED_EDGE('',*,*,#125,.T.);
#171=ORIENTED_EDGE('',*,*,#126,.F.);
#172=ORIENTED_EDGE('',*,*,#118,.T.);
#173=ORIENTED_EDGE('',*,*,#124,.F.);
#174=ORIENTED_EDGE('',*,*,#120,.F.);
#175=PLANE('',#212);
#176=PLANE('',#213);
#177=PLANE('',#214);
#178=PLANE('',#215);
#179=PLANE('',#216);
#180=PLANE('',#217);
#181=PLANE('',#224);
#182=PLANE('',#225);
#183=PLANE('',#226);
#184=PLANE('',#227);
#185=ADVANCED_FACE('',(#23),#175,.T.);
#186=ADVANCED_FACE('',(#24),#176,.T.);
#187=ADVANCED_FACE('',(#25),#177,.T.);
#188=ADVANCED_FACE('',(#26),#178,.T.);
#189=ADVANCED_FACE('',(#27),#179,.T.);
#190=ADVANCED_FACE('',(#28),#180,.F.);
#191=ADVANCED_FACE('',(#29),#17,.T.);
#192=ADVANCED_FACE('',(#30),#18,.T.);
#193=ADVANCED_FACE('',(#31),#181,.T.);
#194=ADVANCED_FACE('',(#32),#182,.T.);
#195=ADVANCED_FACE('',(#33),#183,.T.);
#196=ADVANCED_FACE('',(#34),#184,.T.);
#197=CLOSED_SHELL('',(#185,#186,#187,#188,#189,#190));
#198=CLOSED_SHELL('',(#191,#192,#193,#194,#195,#196));
#199=DERIVED_UNIT_ELEMENT(#201,1.);
#200=DERIVED_UNIT_ELEMENT(#340,-3.);
#201=(
MASS_UNIT()
NAMED_UNIT(*)
SI_UNIT(.KILO.,.GRAM.)
);
#202=DERIVED_UNIT((#199,#200));
#203=MEASURE_REPRESENTATION_ITEM('density measure',
POSITIVE_RATIO_MEASURE(7850.),#202);
#204=PROPERTY_DEFINITION_REPRESENTATION(#209,#206);
#205=PROPERTY_DEFINITION_REPRESENTATION(#210,#207);
#206=REPRESENTATION('material name',(#208),#337);
#207=REPRESENTATION('density',(#203),#337);
#208=DESCRIPTIVE_REPRESENTATION_ITEM('Stahl','Stahl');
#209=PROPERTY_DEFINITION('material property','material name',#347);
#210=PROPERTY_DEFINITION('material property','density of part',#347);
#211=AXIS2_PLACEMENT_3D('',#282,#228,#229);
#212=AXIS2_PLACEMENT_3D('',#283,#230,#231);
#213=AXIS2_PLACEMENT_3D('',#292,#236,#237);
#214=AXIS2_PLACEMENT_3D('',#298,#241,#242);
#215=AXIS2_PLACEMENT_3D('',#304,#246,#247);
#216=AXIS2_PLACEMENT_3D('',#307,#250,#251);
#217=AXIS2_PLACEMENT_3D('',#308,#252,#253);
#218=AXIS2_PLACEMENT_3D('',#309,#254,#255);
#219=AXIS2_PLACEMENT_3D('',#312,#256,#257);
#220=AXIS2_PLACEMENT_3D('',#316,#259,#260);
#221=AXIS2_PLACEMENT_3D('',#318,#262,#263);
#222=AXIS2_PLACEMENT_3D('',#321,#264,#265);
#223=AXIS2_PLACEMENT_3D('',#325,#267,#268);
#224=AXIS2_PLACEMENT_3D('',#327,#270,#271);
#225=AXIS2_PLACEMENT_3D('',#330,#274,#275);
#226=AXIS2_PLACEMENT_3D('',#333,#278,#279);
#227=AXIS2_PLACEMENT_3D('',#334,#280,#281);
#228=DIRECTION('axis',(0.,0.,1.));
#229=DIRECTION('refdir',(1.,0.,0.));
#230=DIRECTION('center_axis',(0.,-1.,0.));
#231=DIRECTION('ref_axis',(1.,0.,0.));
#232=DIRECTION('',(1.,0.,0.));
#233=DIRECTION('',(0.,0.,1.));
#234=DIRECTION('',(1.,0.,0.));
#235=DIRECTION('',(0.,0.,1.));
#236=DIRECTION('center_axis',(-1.,0.,0.));
#237=DIRECTION('ref_axis',(0.,-1.,0.));
#238=DIRECTION('',(0.,-1.,0.));
#239=DIRECTION('',(0.,-1.,0.));
#240=DIRECTION('',(0.,0.,1.));
#241=DIRECTION('center_axis',(0.,1.,0.));
#242=DIRECTION('ref_axis',(-1.,0.,0.));
#243=DIRECTION('',(-1.,0.,0.));
#244=DIRECTION('',(-1.,0.,0.));
#245=DIRECTION('',(0.,0.,1.));
#246=DIRECTION('center_axis',(1.,0.,0.));
#247=DIRECTION('ref_axis',(0.,1.,0.));
#248=DIRECTION('',(0.,1.,0.));
#249=DIRECTION('',(0.,1.,0.));
#250=DIRECTION('center_axis',(0.,0.,1.));
#251=DIRECTION('ref_axis',(1.,0.,0.));
#252=DIRECTION('center_axis',(0.,0.,1.));
#253=DIRECTION('ref_axis',(1.,0.,0.));
#254=DIRECTION('center_axis',(0.,1.,0.));
#255=DIRECTION('ref_axis',(0.966944101672104,0.,-0.254988439427218));
#256=DIRECTION('center_axis',(0.,-1.,0.));
#257=DIRECTION('ref_axis',(0.966944101672104,0.,-0.254988439427218));
#258=DIRECTION('',(0.,-1.,0.));
#259=DIRECTION('center_axis',(0.,1.,0.));
#260=DIRECTION('ref_axis',(0.966944101672104,0.,-0.254988439427218));
#261=DIRECTION('',(0.,1.,0.));
#262=DIRECTION('center_axis',(0.,1.,0.));
#263=DIRECTION('ref_axis',(-0.999942605597979,0.,0.0107137999759335));
#264=DIRECTION('center_axis',(0.,-1.,0.));
#265=DIRECTION('ref_axis',(-0.999942605597979,0.,0.0107137999759335));
#266=DIRECTION('',(0.,1.,0.));
#267=DIRECTION('center_axis',(0.,1.,0.));
#268=DIRECTION('ref_axis',(-0.999942605597979,0.,0.0107137999759335));
#269=DIRECTION('',(0.,1.,0.));
#270=DIRECTION('center_axis',(0.,1.,0.));
#271=DIRECTION('ref_axis',(-1.,0.,0.));
#272=DIRECTION('',(1.,0.,0.));
#273=DIRECTION('',(1.,0.,0.));
#274=DIRECTION('center_axis',(0.,-1.,0.));
#275=DIRECTION('ref_axis',(1.,0.,0.));
#276=DIRECTION('',(-1.,0.,0.));
#277=DIRECTION('',(-1.,0.,0.));
#278=DIRECTION('center_axis',(0.,0.,-1.));
#279=DIRECTION('ref_axis',(-1.,0.,0.));
#280=DIRECTION('center_axis',(0.,0.,1.));
#281=DIRECTION('ref_axis',(1.,0.,0.));
#282=CARTESIAN_POINT('',(0.,0.,0.));
#283=CARTESIAN_POINT('Origin',(-24.5,-141.5,0.));
#284=CARTESIAN_POINT('',(-24.5,-141.5,0.));
#285=CARTESIAN_POINT('',(24.5,-141.5,0.));
#286=CARTESIAN_POINT('',(-24.5,-141.5,0.));
#287=CARTESIAN_POINT('',(24.5,-141.5,63.));
#288=CARTESIAN_POINT('',(24.5,-141.5,0.));
#289=CARTESIAN_POINT('',(-24.5,-141.5,63.));
#290=CARTESIAN_POINT('',(-24.5,-141.5,63.));
#291=CARTESIAN_POINT('',(-24.5,-141.5,0.));
#292=CARTESIAN_POINT('Origin',(-24.5,141.5,0.));
#293=CARTESIAN_POINT('',(-24.5,141.5,0.));
#294=CARTESIAN_POINT('',(-24.5,141.5,0.));
#295=CARTESIAN_POINT('',(-24.5,141.5,63.));
#296=CARTESIAN_POINT('',(-24.5,141.5,63.));
#297=CARTESIAN_POINT('',(-24.5,141.5,0.));
#298=CARTESIAN_POINT('Origin',(24.5,141.5,0.));
#299=CARTESIAN_POINT('',(24.5,141.5,0.));
#300=CARTESIAN_POINT('',(24.5,141.5,0.));
#301=CARTESIAN_POINT('',(24.5,141.5,63.));
#302=CARTESIAN_POINT('',(24.5,141.5,63.));
#303=CARTESIAN_POINT('',(24.5,141.5,0.));
#304=CARTESIAN_POINT('Origin',(24.5,-141.5,0.));
#305=CARTESIAN_POINT('',(24.5,-141.5,0.));
#306=CARTESIAN_POINT('',(24.5,-141.5,63.));
#307=CARTESIAN_POINT('Origin',(0.,0.,63.));
#308=CARTESIAN_POINT('Origin',(0.,0.,0.));
#309=CARTESIAN_POINT('Origin',(-446.661038961039,-137.,-5.));
#310=CARTESIAN_POINT('',(4.6,-137.,-124.));
#311=CARTESIAN_POINT('',(20.,-137.,2.48689957516035E-13));
#312=CARTESIAN_POINT('Origin',(-446.661038961039,-137.,-5.));
#313=CARTESIAN_POINT('',(4.6,137.,-124.));
#314=CARTESIAN_POINT('',(4.6,137.,-124.));
#315=CARTESIAN_POINT('',(20.,137.,2.48689957516035E-13));
#316=CARTESIAN_POINT('Origin',(-446.661038961039,137.,-5.));
#317=CARTESIAN_POINT('',(20.,-137.,2.48689957516035E-13));
#318=CARTESIAN_POINT('Origin',(446.661038961039,-137.,-5.));
#319=CARTESIAN_POINT('',(-20.,-137.,0.));
#320=CARTESIAN_POINT('',(-4.6,-137.,-124.));
#321=CARTESIAN_POINT('Origin',(446.661038961039,-137.,-5.));
#322=CARTESIAN_POINT('',(-20.,137.,0.));
#323=CARTESIAN_POINT('',(-20.,-137.,0.));
#324=CARTESIAN_POINT('',(-4.6,137.,-124.));
#325=CARTESIAN_POINT('Origin',(446.661038961039,137.,-5.));
#326=CARTESIAN_POINT('',(-4.6,-137.,-124.));
#327=CARTESIAN_POINT('Origin',(4.6,137.,-124.));
#328=CARTESIAN_POINT('',(-4.6,137.,-124.));
#329=CARTESIAN_POINT('',(0.,137.,0.));
#330=CARTESIAN_POINT('Origin',(-4.6,-137.,-124.));
#331=CARTESIAN_POINT('',(4.6,-137.,-124.));
#332=CARTESIAN_POINT('',(0.,-137.,0.));
#333=CARTESIAN_POINT('Origin',(0.,0.,-124.));
#334=CARTESIAN_POINT('Origin',(0.,0.,0.));
#335=UNCERTAINTY_MEASURE_WITH_UNIT(LENGTH_MEASURE(0.01),#339,
'DISTANCE_ACCURACY_VALUE',
'Maximum model space distance between geometric entities at asserted c
onnectivities');
#336=UNCERTAINTY_MEASURE_WITH_UNIT(LENGTH_MEASURE(0.01),#339,
'DISTANCE_ACCURACY_VALUE',
'Maximum model space distance between geometric entities at asserted c
onnectivities');
#337=(
GEOMETRIC_REPRESENTATION_CONTEXT(3)
GLOBAL_UNCERTAINTY_ASSIGNED_CONTEXT((#335))
GLOBAL_UNIT_ASSIGNED_CONTEXT((#339,#341,#342))
REPRESENTATION_CONTEXT('','3D')
);
#338=(
GEOMETRIC_REPRESENTATION_CONTEXT(3)
GLOBAL_UNCERTAINTY_ASSIGNED_CONTEXT((#336))
GLOBAL_UNIT_ASSIGNED_CONTEXT((#339,#341,#342))
REPRESENTATION_CONTEXT('','3D')
);
#339=(
LENGTH_UNIT()
NAMED_UNIT(*)
SI_UNIT(.MILLI.,.METRE.)
);
#340=(
LENGTH_UNIT()
NAMED_UNIT(*)
SI_UNIT($,.METRE.)
);
#341=(
NAMED_UNIT(*)
PLANE_ANGLE_UNIT()
SI_UNIT($,.RADIAN.)
);
#342=(
NAMED_UNIT(*)
SI_UNIT($,.STERADIAN.)
SOLID_ANGLE_UNIT()
);
#343=SHAPE_DEFINITION_REPRESENTATION(#344,#345);
#344=PRODUCT_DEFINITION_SHAPE('',$,#347);
#345=SHAPE_REPRESENTATION('',(#211),#337);
#346=PRODUCT_DEFINITION_CONTEXT('part definition',#351,'design');
#347=PRODUCT_DEFINITION('F1_simple','F1_simple v1',#348,#346);
#348=PRODUCT_DEFINITION_FORMATION('',$,#353);
#349=PRODUCT_RELATED_PRODUCT_CATEGORY('F1_simple v1','F1_simple v1',(#353));
#350=APPLICATION_PROTOCOL_DEFINITION('international standard',
'automotive_design',2009,#351);
#351=APPLICATION_CONTEXT(
'Core Data for Automotive Mechanical Design Process');
#352=PRODUCT_CONTEXT('part definition',#351,'mechanical');
#353=PRODUCT('F1_simple','F1_simple v1',$,(#352));
#354=PRESENTATION_STYLE_ASSIGNMENT((#357));
#355=PRESENTATION_STYLE_ASSIGNMENT((#358));
#356=PRESENTATION_STYLE_ASSIGNMENT((#359));
#357=SURFACE_STYLE_USAGE(.BOTH.,#360);
#358=SURFACE_STYLE_USAGE(.BOTH.,#361);
#359=SURFACE_STYLE_USAGE(.BOTH.,#362);
#360=SURFACE_SIDE_STYLE('',(#363));
#361=SURFACE_SIDE_STYLE('',(#364));
#362=SURFACE_SIDE_STYLE('',(#365));
#363=SURFACE_STYLE_FILL_AREA(#366);
#364=SURFACE_STYLE_FILL_AREA(#367);
#365=SURFACE_STYLE_FILL_AREA(#368);
#366=FILL_AREA_STYLE('Stahl - satiniert',(#369));
#367=FILL_AREA_STYLE('ABS (Wei\X\DF)',(#370));
#368=FILL_AREA_STYLE('Acryl (klar)',(#371));
#369=FILL_AREA_STYLE_COLOUR('Stahl - satiniert',#372);
#370=FILL_AREA_STYLE_COLOUR('ABS (Wei\X\DF)',#373);
#371=FILL_AREA_STYLE_COLOUR('Acryl (klar)',#374);
#372=COLOUR_RGB('Stahl - satiniert',0.627450980392157,0.627450980392157,
0.627450980392157);
#373=COLOUR_RGB('ABS (Wei\X\DF)',0.964705882352941,0.964705882352941,0.952941176470588);
#374=COLOUR_RGB('Acryl (klar)',0.964705882352941,0.964705882352941,0.952941176470588);
ENDSEC;
END-ISO-10303-21;
