ISO-10303-21;
HEADER;
/* Generated by software containing ST-Developer
 * from STEP Tools, Inc. (www.steptools.com) 
 */

FILE_DESCRIPTION(
/* description */ (''),
/* implementation_level */ '2;1');

FILE_NAME(
/* name */ 'S1_simple v1.step',
/* time_stamp */ '2023-08-29T10:40:34+02:00',
/* author */ (''),
/* organization */ (''),
/* preprocessor_version */ 'ST-DEVELOPER v20',
/* originating_system */ 'Autodesk Translation Framework v12.9.0.99',
/* authorisation */ '');

FILE_SCHEMA (('AUTOMOTIVE_DESIGN { 1 0 10303 214 3 1 1 }'));
ENDSEC;

DATA;
#10=MECHANICAL_DESIGN_GEOMETRIC_PRESENTATION_REPRESENTATION('',(#13,#14),
#334);
#11=SHAPE_REPRESENTATION_RELATIONSHIP('SRR','None',#341,#12);
#12=ADVANCED_BREP_SHAPE_REPRESENTATION('',(#15,#16),#333);
#13=STYLED_ITEM('',(#351),#15);
#14=STYLED_ITEM('',(#352),#16);
#15=MANIFOLD_SOLID_BREP('K\X\F6rper1',#201);
#16=MANIFOLD_SOLID_BREP('K\X\F6rper2',#202);
#17=FACE_OUTER_BOUND('',#29,.T.);
#18=FACE_OUTER_BOUND('',#30,.T.);
#19=FACE_OUTER_BOUND('',#31,.T.);
#20=FACE_OUTER_BOUND('',#32,.T.);
#21=FACE_OUTER_BOUND('',#33,.T.);
#22=FACE_OUTER_BOUND('',#34,.T.);
#23=FACE_OUTER_BOUND('',#35,.T.);
#24=FACE_OUTER_BOUND('',#36,.T.);
#25=FACE_OUTER_BOUND('',#37,.T.);
#26=FACE_OUTER_BOUND('',#38,.T.);
#27=FACE_OUTER_BOUND('',#39,.T.);
#28=FACE_OUTER_BOUND('',#40,.T.);
#29=EDGE_LOOP('',(#129,#130,#131,#132));
#30=EDGE_LOOP('',(#133,#134,#135,#136));
#31=EDGE_LOOP('',(#137,#138,#139,#140));
#32=EDGE_LOOP('',(#141,#142,#143,#144));
#33=EDGE_LOOP('',(#145,#146,#147,#148));
#34=EDGE_LOOP('',(#149,#150,#151,#152));
#35=EDGE_LOOP('',(#153,#154,#155,#156));
#36=EDGE_LOOP('',(#157,#158,#159,#160));
#37=EDGE_LOOP('',(#161,#162,#163,#164));
#38=EDGE_LOOP('',(#165,#166,#167,#168));
#39=EDGE_LOOP('',(#169,#170,#171,#172));
#40=EDGE_LOOP('',(#173,#174,#175,#176));
#41=LINE('',#282,#65);
#42=LINE('',#284,#66);
#43=LINE('',#286,#67);
#44=LINE('',#287,#68);
#45=LINE('',#290,#69);
#46=LINE('',#292,#70);
#47=LINE('',#293,#71);
#48=LINE('',#296,#72);
#49=LINE('',#298,#73);
#50=LINE('',#299,#74);
#51=LINE('',#301,#75);
#52=LINE('',#302,#76);
#53=LINE('',#308,#77);
#54=LINE('',#310,#78);
#55=LINE('',#312,#79);
#56=LINE('',#313,#80);
#57=LINE('',#316,#81);
#58=LINE('',#318,#82);
#59=LINE('',#319,#83);
#60=LINE('',#322,#84);
#61=LINE('',#324,#85);
#62=LINE('',#325,#86);
#63=LINE('',#327,#87);
#64=LINE('',#328,#88);
#65=VECTOR('',#232,10.);
#66=VECTOR('',#233,10.);
#67=VECTOR('',#234,10.);
#68=VECTOR('',#235,10.);
#69=VECTOR('',#238,10.);
#70=VECTOR('',#239,10.);
#71=VECTOR('',#240,10.);
#72=VECTOR('',#243,10.);
#73=VECTOR('',#244,10.);
#74=VECTOR('',#245,10.);
#75=VECTOR('',#248,10.);
#76=VECTOR('',#249,10.);
#77=VECTOR('',#256,10.);
#78=VECTOR('',#257,10.);
#79=VECTOR('',#258,10.);
#80=VECTOR('',#259,10.);
#81=VECTOR('',#262,10.);
#82=VECTOR('',#263,10.);
#83=VECTOR('',#264,10.);
#84=VECTOR('',#267,10.);
#85=VECTOR('',#268,10.);
#86=VECTOR('',#269,10.);
#87=VECTOR('',#272,10.);
#88=VECTOR('',#273,10.);
#89=VERTEX_POINT('',#280);
#90=VERTEX_POINT('',#281);
#91=VERTEX_POINT('',#283);
#92=VERTEX_POINT('',#285);
#93=VERTEX_POINT('',#289);
#94=VERTEX_POINT('',#291);
#95=VERTEX_POINT('',#295);
#96=VERTEX_POINT('',#297);
#97=VERTEX_POINT('',#306);
#98=VERTEX_POINT('',#307);
#99=VERTEX_POINT('',#309);
#100=VERTEX_POINT('',#311);
#101=VERTEX_POINT('',#315);
#102=VERTEX_POINT('',#317);
#103=VERTEX_POINT('',#321);
#104=VERTEX_POINT('',#323);
#105=EDGE_CURVE('',#89,#90,#41,.T.);
#106=EDGE_CURVE('',#90,#91,#42,.T.);
#107=EDGE_CURVE('',#92,#91,#43,.T.);
#108=EDGE_CURVE('',#89,#92,#44,.T.);
#109=EDGE_CURVE('',#93,#89,#45,.T.);
#110=EDGE_CURVE('',#94,#92,#46,.T.);
#111=EDGE_CURVE('',#93,#94,#47,.T.);
#112=EDGE_CURVE('',#95,#93,#48,.T.);
#113=EDGE_CURVE('',#96,#94,#49,.T.);
#114=EDGE_CURVE('',#95,#96,#50,.T.);
#115=EDGE_CURVE('',#90,#95,#51,.T.);
#116=EDGE_CURVE('',#91,#96,#52,.T.);
#117=EDGE_CURVE('',#97,#98,#53,.T.);
#118=EDGE_CURVE('',#97,#99,#54,.T.);
#119=EDGE_CURVE('',#100,#99,#55,.T.);
#120=EDGE_CURVE('',#98,#100,#56,.T.);
#121=EDGE_CURVE('',#98,#101,#57,.T.);
#122=EDGE_CURVE('',#102,#100,#58,.T.);
#123=EDGE_CURVE('',#101,#102,#59,.T.);
#124=EDGE_CURVE('',#101,#103,#60,.T.);
#125=EDGE_CURVE('',#104,#102,#61,.T.);
#126=EDGE_CURVE('',#103,#104,#62,.T.);
#127=EDGE_CURVE('',#103,#97,#63,.T.);
#128=EDGE_CURVE('',#99,#104,#64,.T.);
#129=ORIENTED_EDGE('',*,*,#105,.T.);
#130=ORIENTED_EDGE('',*,*,#106,.T.);
#131=ORIENTED_EDGE('',*,*,#107,.F.);
#132=ORIENTED_EDGE('',*,*,#108,.F.);
#133=ORIENTED_EDGE('',*,*,#109,.T.);
#134=ORIENTED_EDGE('',*,*,#108,.T.);
#135=ORIENTED_EDGE('',*,*,#110,.F.);
#136=ORIENTED_EDGE('',*,*,#111,.F.);
#137=ORIENTED_EDGE('',*,*,#112,.T.);
#138=ORIENTED_EDGE('',*,*,#111,.T.);
#139=ORIENTED_EDGE('',*,*,#113,.F.);
#140=ORIENTED_EDGE('',*,*,#114,.F.);
#141=ORIENTED_EDGE('',*,*,#115,.T.);
#142=ORIENTED_EDGE('',*,*,#114,.T.);
#143=ORIENTED_EDGE('',*,*,#116,.F.);
#144=ORIENTED_EDGE('',*,*,#106,.F.);
#145=ORIENTED_EDGE('',*,*,#116,.T.);
#146=ORIENTED_EDGE('',*,*,#113,.T.);
#147=ORIENTED_EDGE('',*,*,#110,.T.);
#148=ORIENTED_EDGE('',*,*,#107,.T.);
#149=ORIENTED_EDGE('',*,*,#115,.F.);
#150=ORIENTED_EDGE('',*,*,#105,.F.);
#151=ORIENTED_EDGE('',*,*,#109,.F.);
#152=ORIENTED_EDGE('',*,*,#112,.F.);
#153=ORIENTED_EDGE('',*,*,#117,.F.);
#154=ORIENTED_EDGE('',*,*,#118,.T.);
#155=ORIENTED_EDGE('',*,*,#119,.F.);
#156=ORIENTED_EDGE('',*,*,#120,.F.);
#157=ORIENTED_EDGE('',*,*,#121,.F.);
#158=ORIENTED_EDGE('',*,*,#120,.T.);
#159=ORIENTED_EDGE('',*,*,#122,.F.);
#160=ORIENTED_EDGE('',*,*,#123,.F.);
#161=ORIENTED_EDGE('',*,*,#124,.F.);
#162=ORIENTED_EDGE('',*,*,#123,.T.);
#163=ORIENTED_EDGE('',*,*,#125,.F.);
#164=ORIENTED_EDGE('',*,*,#126,.F.);
#165=ORIENTED_EDGE('',*,*,#127,.F.);
#166=ORIENTED_EDGE('',*,*,#126,.T.);
#167=ORIENTED_EDGE('',*,*,#128,.F.);
#168=ORIENTED_EDGE('',*,*,#118,.F.);
#169=ORIENTED_EDGE('',*,*,#127,.T.);
#170=ORIENTED_EDGE('',*,*,#117,.T.);
#171=ORIENTED_EDGE('',*,*,#121,.T.);
#172=ORIENTED_EDGE('',*,*,#124,.T.);
#173=ORIENTED_EDGE('',*,*,#128,.T.);
#174=ORIENTED_EDGE('',*,*,#125,.T.);
#175=ORIENTED_EDGE('',*,*,#122,.T.);
#176=ORIENTED_EDGE('',*,*,#119,.T.);
#177=PLANE('',#216);
#178=PLANE('',#217);
#179=PLANE('',#218);
#180=PLANE('',#219);
#181=PLANE('',#220);
#182=PLANE('',#221);
#183=PLANE('',#222);
#184=PLANE('',#223);
#185=PLANE('',#224);
#186=PLANE('',#225);
#187=PLANE('',#226);
#188=PLANE('',#227);
#189=ADVANCED_FACE('',(#17),#177,.T.);
#190=ADVANCED_FACE('',(#18),#178,.T.);
#191=ADVANCED_FACE('',(#19),#179,.T.);
#192=ADVANCED_FACE('',(#20),#180,.T.);
#193=ADVANCED_FACE('',(#21),#181,.T.);
#194=ADVANCED_FACE('',(#22),#182,.F.);
#195=ADVANCED_FACE('',(#23),#183,.T.);
#196=ADVANCED_FACE('',(#24),#184,.T.);
#197=ADVANCED_FACE('',(#25),#185,.T.);
#198=ADVANCED_FACE('',(#26),#186,.T.);
#199=ADVANCED_FACE('',(#27),#187,.T.);
#200=ADVANCED_FACE('',(#28),#188,.T.);
#201=CLOSED_SHELL('',(#189,#190,#191,#192,#193,#194));
#202=CLOSED_SHELL('',(#195,#196,#197,#198,#199,#200));
#203=DERIVED_UNIT_ELEMENT(#205,1.);
#204=DERIVED_UNIT_ELEMENT(#336,-3.);
#205=(
MASS_UNIT()
NAMED_UNIT(*)
SI_UNIT(.KILO.,.GRAM.)
);
#206=DERIVED_UNIT((#203,#204));
#207=MEASURE_REPRESENTATION_ITEM('density measure',
POSITIVE_RATIO_MEASURE(7850.),#206);
#208=PROPERTY_DEFINITION_REPRESENTATION(#213,#210);
#209=PROPERTY_DEFINITION_REPRESENTATION(#214,#211);
#210=REPRESENTATION('material name',(#212),#333);
#211=REPRESENTATION('density',(#207),#333);
#212=DESCRIPTIVE_REPRESENTATION_ITEM('Stahl','Stahl');
#213=PROPERTY_DEFINITION('material property','material name',#343);
#214=PROPERTY_DEFINITION('material property','density of part',#343);
#215=AXIS2_PLACEMENT_3D('',#278,#228,#229);
#216=AXIS2_PLACEMENT_3D('',#279,#230,#231);
#217=AXIS2_PLACEMENT_3D('',#288,#236,#237);
#218=AXIS2_PLACEMENT_3D('',#294,#241,#242);
#219=AXIS2_PLACEMENT_3D('',#300,#246,#247);
#220=AXIS2_PLACEMENT_3D('',#303,#250,#251);
#221=AXIS2_PLACEMENT_3D('',#304,#252,#253);
#222=AXIS2_PLACEMENT_3D('',#305,#254,#255);
#223=AXIS2_PLACEMENT_3D('',#314,#260,#261);
#224=AXIS2_PLACEMENT_3D('',#320,#265,#266);
#225=AXIS2_PLACEMENT_3D('',#326,#270,#271);
#226=AXIS2_PLACEMENT_3D('',#329,#274,#275);
#227=AXIS2_PLACEMENT_3D('',#330,#276,#277);
#228=DIRECTION('axis',(0.,0.,1.));
#229=DIRECTION('refdir',(1.,0.,0.));
#230=DIRECTION('center_axis',(0.,-1.,0.));
#231=DIRECTION('ref_axis',(1.,0.,0.));
#232=DIRECTION('',(1.,0.,0.));
#233=DIRECTION('',(0.,0.,1.));
#234=DIRECTION('',(1.,0.,0.));
#235=DIRECTION('',(0.,0.,1.));
#236=DIRECTION('center_axis',(-1.,0.,0.));
#237=DIRECTION('ref_axis',(0.,-1.,0.));
#238=DIRECTION('',(0.,-1.,0.));
#239=DIRECTION('',(0.,-1.,0.));
#240=DIRECTION('',(0.,0.,1.));
#241=DIRECTION('center_axis',(0.,1.,0.));
#242=DIRECTION('ref_axis',(-1.,0.,0.));
#243=DIRECTION('',(-1.,0.,0.));
#244=DIRECTION('',(-1.,0.,0.));
#245=DIRECTION('',(0.,0.,1.));
#246=DIRECTION('center_axis',(1.,0.,0.));
#247=DIRECTION('ref_axis',(0.,1.,0.));
#248=DIRECTION('',(0.,1.,0.));
#249=DIRECTION('',(0.,1.,0.));
#250=DIRECTION('center_axis',(0.,0.,1.));
#251=DIRECTION('ref_axis',(1.,0.,0.));
#252=DIRECTION('center_axis',(0.,0.,1.));
#253=DIRECTION('ref_axis',(1.,0.,0.));
#254=DIRECTION('center_axis',(0.,1.,0.));
#255=DIRECTION('ref_axis',(-1.,0.,0.));
#256=DIRECTION('',(1.,0.,0.));
#257=DIRECTION('',(0.,0.,1.));
#258=DIRECTION('',(-1.,0.,0.));
#259=DIRECTION('',(0.,0.,1.));
#260=DIRECTION('center_axis',(1.,0.,0.));
#261=DIRECTION('ref_axis',(0.,1.,0.));
#262=DIRECTION('',(0.,-1.,0.));
#263=DIRECTION('',(0.,1.,0.));
#264=DIRECTION('',(0.,0.,1.));
#265=DIRECTION('center_axis',(0.,-1.,0.));
#266=DIRECTION('ref_axis',(1.,0.,0.));
#267=DIRECTION('',(-1.,0.,0.));
#268=DIRECTION('',(1.,0.,0.));
#269=DIRECTION('',(0.,0.,1.));
#270=DIRECTION('center_axis',(-1.,0.,0.));
#271=DIRECTION('ref_axis',(0.,-1.,0.));
#272=DIRECTION('',(0.,1.,0.));
#273=DIRECTION('',(0.,-1.,0.));
#274=DIRECTION('center_axis',(0.,0.,-1.));
#275=DIRECTION('ref_axis',(-1.,0.,0.));
#276=DIRECTION('center_axis',(0.,0.,1.));
#277=DIRECTION('ref_axis',(1.,0.,0.));
#278=CARTESIAN_POINT('',(0.,0.,0.));
#279=CARTESIAN_POINT('Origin',(-24.5,-141.5,0.));
#280=CARTESIAN_POINT('',(-24.5,-141.5,0.));
#281=CARTESIAN_POINT('',(24.5,-141.5,0.));
#282=CARTESIAN_POINT('',(-24.5,-141.5,0.));
#283=CARTESIAN_POINT('',(24.5,-141.5,63.));
#284=CARTESIAN_POINT('',(24.5,-141.5,0.));
#285=CARTESIAN_POINT('',(-24.5,-141.5,63.));
#286=CARTESIAN_POINT('',(-24.5,-141.5,63.));
#287=CARTESIAN_POINT('',(-24.5,-141.5,0.));
#288=CARTESIAN_POINT('Origin',(-24.5,141.5,0.));
#289=CARTESIAN_POINT('',(-24.5,141.5,0.));
#290=CARTESIAN_POINT('',(-24.5,141.5,0.));
#291=CARTESIAN_POINT('',(-24.5,141.5,63.));
#292=CARTESIAN_POINT('',(-24.5,141.5,63.));
#293=CARTESIAN_POINT('',(-24.5,141.5,0.));
#294=CARTESIAN_POINT('Origin',(24.5,141.5,0.));
#295=CARTESIAN_POINT('',(24.5,141.5,0.));
#296=CARTESIAN_POINT('',(24.5,141.5,0.));
#297=CARTESIAN_POINT('',(24.5,141.5,63.));
#298=CARTESIAN_POINT('',(24.5,141.5,63.));
#299=CARTESIAN_POINT('',(24.5,141.5,0.));
#300=CARTESIAN_POINT('Origin',(24.5,-141.5,0.));
#301=CARTESIAN_POINT('',(24.5,-141.5,0.));
#302=CARTESIAN_POINT('',(24.5,-141.5,63.));
#303=CARTESIAN_POINT('Origin',(0.,0.,63.));
#304=CARTESIAN_POINT('Origin',(0.,0.,0.));
#305=CARTESIAN_POINT('Origin',(4.6,137.,-124.));
#306=CARTESIAN_POINT('',(-4.6,137.,-124.));
#307=CARTESIAN_POINT('',(4.6,137.,-124.));
#308=CARTESIAN_POINT('',(-4.6,137.,-124.));
#309=CARTESIAN_POINT('',(-4.6,137.,0.));
#310=CARTESIAN_POINT('',(-4.6,137.,-124.));
#311=CARTESIAN_POINT('',(4.6,137.,0.));
#312=CARTESIAN_POINT('',(-4.6,137.,0.));
#313=CARTESIAN_POINT('',(4.6,137.,-124.));
#314=CARTESIAN_POINT('Origin',(4.6,-137.,-124.));
#315=CARTESIAN_POINT('',(4.6,-137.,-124.));
#316=CARTESIAN_POINT('',(4.6,137.,-124.));
#317=CARTESIAN_POINT('',(4.6,-137.,0.));
#318=CARTESIAN_POINT('',(4.6,137.,0.));
#319=CARTESIAN_POINT('',(4.6,-137.,-124.));
#320=CARTESIAN_POINT('Origin',(-4.6,-137.,-124.));
#321=CARTESIAN_POINT('',(-4.6,-137.,-124.));
#322=CARTESIAN_POINT('',(4.6,-137.,-124.));
#323=CARTESIAN_POINT('',(-4.6,-137.,0.));
#324=CARTESIAN_POINT('',(4.6,-137.,0.));
#325=CARTESIAN_POINT('',(-4.6,-137.,-124.));
#326=CARTESIAN_POINT('Origin',(-4.6,137.,-124.));
#327=CARTESIAN_POINT('',(-4.6,-137.,-124.));
#328=CARTESIAN_POINT('',(-4.6,-137.,0.));
#329=CARTESIAN_POINT('Origin',(0.,0.,-124.));
#330=CARTESIAN_POINT('Origin',(0.,0.,0.));
#331=UNCERTAINTY_MEASURE_WITH_UNIT(LENGTH_MEASURE(0.01),#335,
'DISTANCE_ACCURACY_VALUE',
'Maximum model space distance between geometric entities at asserted c
onnectivities');
#332=UNCERTAINTY_MEASURE_WITH_UNIT(LENGTH_MEASURE(0.01),#335,
'DISTANCE_ACCURACY_VALUE',
'Maximum model space distance between geometric entities at asserted c
onnectivities');
#333=(
GEOMETRIC_REPRESENTATION_CONTEXT(3)
GLOBAL_UNCERTAINTY_ASSIGNED_CONTEXT((#331))
GLOBAL_UNIT_ASSIGNED_CONTEXT((#335,#337,#338))
REPRESENTATION_CONTEXT('','3D')
);
#334=(
GEOMETRIC_REPRESENTATION_CONTEXT(3)
GLOBAL_UNCERTAINTY_ASSIGNED_CONTEXT((#332))
GLOBAL_UNIT_ASSIGNED_CONTEXT((#335,#337,#338))
REPRESENTATION_CONTEXT('','3D')
);
#335=(
LENGTH_UNIT()
NAMED_UNIT(*)
SI_UNIT(.MILLI.,.METRE.)
);
#336=(
LENGTH_UNIT()
NAMED_UNIT(*)
SI_UNIT($,.METRE.)
);
#337=(
NAMED_UNIT(*)
PLANE_ANGLE_UNIT()
SI_UNIT($,.RADIAN.)
);
#338=(
NAMED_UNIT(*)
SI_UNIT($,.STERADIAN.)
SOLID_ANGLE_UNIT()
);
#339=SHAPE_DEFINITION_REPRESENTATION(#340,#341);
#340=PRODUCT_DEFINITION_SHAPE('',$,#343);
#341=SHAPE_REPRESENTATION('',(#215),#333);
#342=PRODUCT_DEFINITION_CONTEXT('part definition',#347,'design');
#343=PRODUCT_DEFINITION('S1_simple','S1_simple v1',#344,#342);
#344=PRODUCT_DEFINITION_FORMATION('',$,#349);
#345=PRODUCT_RELATED_PRODUCT_CATEGORY('S1_simple v1','S1_simple v1',(#349));
#346=APPLICATION_PROTOCOL_DEFINITION('international standard',
'automotive_design',2009,#347);
#347=APPLICATION_CONTEXT(
'Core Data for Automotive Mechanical Design Process');
#348=PRODUCT_CONTEXT('part definition',#347,'mechanical');
#349=PRODUCT('S1_simple','S1_simple v1',$,(#348));
#350=PRESENTATION_STYLE_ASSIGNMENT((#353));
#351=PRESENTATION_STYLE_ASSIGNMENT((#354));
#352=PRESENTATION_STYLE_ASSIGNMENT((#355));
#353=SURFACE_STYLE_USAGE(.BOTH.,#356);
#354=SURFACE_STYLE_USAGE(.BOTH.,#357);
#355=SURFACE_STYLE_USAGE(.BOTH.,#358);
#356=SURFACE_SIDE_STYLE('',(#359));
#357=SURFACE_SIDE_STYLE('',(#360));
#358=SURFACE_SIDE_STYLE('',(#361));
#359=SURFACE_STYLE_FILL_AREA(#362);
#360=SURFACE_STYLE_FILL_AREA(#363);
#361=SURFACE_STYLE_FILL_AREA(#364);
#362=FILL_AREA_STYLE('Stahl - satiniert',(#365));
#363=FILL_AREA_STYLE('ABS (Wei\X\DF)',(#366));
#364=FILL_AREA_STYLE('Acryl (klar)',(#367));
#365=FILL_AREA_STYLE_COLOUR('Stahl - satiniert',#368);
#366=FILL_AREA_STYLE_COLOUR('ABS (Wei\X\DF)',#369);
#367=FILL_AREA_STYLE_COLOUR('Acryl (klar)',#370);
#368=COLOUR_RGB('Stahl - satiniert',0.627450980392157,0.627450980392157,
0.627450980392157);
#369=COLOUR_RGB('ABS (Wei\X\DF)',0.964705882352941,0.964705882352941,0.952941176470588);
#370=COLOUR_RGB('Acryl (klar)',0.964705882352941,0.964705882352941,0.952941176470588);
ENDSEC;
END-ISO-10303-21;
