ISO-10303-21;
HEADER;
/* Generated by software containing ST-Developer
 * from STEP Tools, Inc. (www.steptools.com) 
 */

FILE_DESCRIPTION(
/* description */ (''),
/* implementation_level */ '2;1');

FILE_NAME(
/* name */ 'SK_simple_v2.step',
/* time_stamp */ '2024-01-02T13:35:45+01:00',
/* author */ (''),
/* organization */ (''),
/* preprocessor_version */ 'ST-DEVELOPER v20',
/* originating_system */ 'Autodesk Translation Framework v12.14.0.127',

/* authorisation */ '');

FILE_SCHEMA (('AUTOMOTIVE_DESIGN { 1 0 10303 214 3 1 1 }'));
ENDSEC;

DATA;
#10=MECHANICAL_DESIGN_GEOMETRIC_PRESENTATION_REPRESENTATION('',(#19,#20),
#350);
#11=ITEM_DEFINED_TRANSFORMATION($,$,#222,#235);
#12=(
REPRESENTATION_RELATIONSHIP($,$,#361,#360)
REPRESENTATION_RELATIONSHIP_WITH_TRANSFORMATION(#11)
SHAPE_REPRESENTATION_RELATIONSHIP()
);
#13=CONTEXT_DEPENDENT_SHAPE_REPRESENTATION(#12,#359);
#14=NEXT_ASSEMBLY_USAGE_OCCURRENCE('Scheibe:1','Scheibe:1','Scheibe:1',
#363,#364,'Scheibe:1');
#15=SHAPE_REPRESENTATION_RELATIONSHIP('SRR','None',#361,#17);
#16=SHAPE_REPRESENTATION_RELATIONSHIP('SRR','None',#360,#18);
#17=ADVANCED_BREP_SHAPE_REPRESENTATION('',(#21),#349);
#18=ADVANCED_BREP_SHAPE_REPRESENTATION('',(#22),#348);
#19=STYLED_ITEM('',(#376),#21);
#20=STYLED_ITEM('',(#375),#22);
#21=MANIFOLD_SOLID_BREP('Scheibe (1)',#207);
#22=MANIFOLD_SOLID_BREP('K\X\F6rper2',#208);
#23=FACE_OUTER_BOUND('',#35,.T.);
#24=FACE_OUTER_BOUND('',#36,.T.);
#25=FACE_OUTER_BOUND('',#37,.T.);
#26=FACE_OUTER_BOUND('',#38,.T.);
#27=FACE_OUTER_BOUND('',#39,.T.);
#28=FACE_OUTER_BOUND('',#40,.T.);
#29=FACE_OUTER_BOUND('',#41,.T.);
#30=FACE_OUTER_BOUND('',#42,.T.);
#31=FACE_OUTER_BOUND('',#43,.T.);
#32=FACE_OUTER_BOUND('',#44,.T.);
#33=FACE_OUTER_BOUND('',#45,.T.);
#34=FACE_OUTER_BOUND('',#46,.T.);
#35=EDGE_LOOP('',(#135,#136,#137,#138));
#36=EDGE_LOOP('',(#139,#140,#141,#142));
#37=EDGE_LOOP('',(#143,#144,#145,#146));
#38=EDGE_LOOP('',(#147,#148,#149,#150));
#39=EDGE_LOOP('',(#151,#152,#153,#154));
#40=EDGE_LOOP('',(#155,#156,#157,#158));
#41=EDGE_LOOP('',(#159,#160,#161,#162));
#42=EDGE_LOOP('',(#163,#164,#165,#166));
#43=EDGE_LOOP('',(#167,#168,#169,#170));
#44=EDGE_LOOP('',(#171,#172,#173,#174));
#45=EDGE_LOOP('',(#175,#176,#177,#178));
#46=EDGE_LOOP('',(#179,#180,#181,#182));
#47=LINE('',#295,#71);
#48=LINE('',#297,#72);
#49=LINE('',#299,#73);
#50=LINE('',#300,#74);
#51=LINE('',#303,#75);
#52=LINE('',#305,#76);
#53=LINE('',#306,#77);
#54=LINE('',#309,#78);
#55=LINE('',#310,#79);
#56=LINE('',#313,#80);
#57=LINE('',#314,#81);
#58=LINE('',#316,#82);
#59=LINE('',#321,#83);
#60=LINE('',#323,#84);
#61=LINE('',#325,#85);
#62=LINE('',#326,#86);
#63=LINE('',#329,#87);
#64=LINE('',#331,#88);
#65=LINE('',#332,#89);
#66=LINE('',#335,#90);
#67=LINE('',#336,#91);
#68=LINE('',#339,#92);
#69=LINE('',#340,#93);
#70=LINE('',#342,#94);
#71=VECTOR('',#242,10.);
#72=VECTOR('',#243,10.);
#73=VECTOR('',#244,10.);
#74=VECTOR('',#245,10.);
#75=VECTOR('',#248,10.);
#76=VECTOR('',#249,10.);
#77=VECTOR('',#250,10.);
#78=VECTOR('',#253,10.);
#79=VECTOR('',#254,10.);
#80=VECTOR('',#257,10.);
#81=VECTOR('',#258,10.);
#82=VECTOR('',#261,10.);
#83=VECTOR('',#266,49.);
#84=VECTOR('',#267,42.);
#85=VECTOR('',#268,49.);
#86=VECTOR('',#269,42.);
#87=VECTOR('',#272,217.);
#88=VECTOR('',#273,49.);
#89=VECTOR('',#274,217.);
#90=VECTOR('',#277,1.5);
#91=VECTOR('',#278,42.);
#92=VECTOR('',#281,217.);
#93=VECTOR('',#282,42.);
#94=VECTOR('',#285,49.);
#95=VERTEX_POINT('',#293);
#96=VERTEX_POINT('',#294);
#97=VERTEX_POINT('',#296);
#98=VERTEX_POINT('',#298);
#99=VERTEX_POINT('',#302);
#100=VERTEX_POINT('',#304);
#101=VERTEX_POINT('',#308);
#102=VERTEX_POINT('',#312);
#103=VERTEX_POINT('',#319);
#104=VERTEX_POINT('',#320);
#105=VERTEX_POINT('',#322);
#106=VERTEX_POINT('',#324);
#107=VERTEX_POINT('',#328);
#108=VERTEX_POINT('',#330);
#109=VERTEX_POINT('',#334);
#110=VERTEX_POINT('',#338);
#111=EDGE_CURVE('',#95,#96,#47,.T.);
#112=EDGE_CURVE('',#97,#95,#48,.T.);
#113=EDGE_CURVE('',#98,#97,#49,.T.);
#114=EDGE_CURVE('',#96,#98,#50,.T.);
#115=EDGE_CURVE('',#97,#99,#51,.T.);
#116=EDGE_CURVE('',#100,#99,#52,.T.);
#117=EDGE_CURVE('',#98,#100,#53,.T.);
#118=EDGE_CURVE('',#95,#101,#54,.T.);
#119=EDGE_CURVE('',#99,#101,#55,.T.);
#120=EDGE_CURVE('',#102,#96,#56,.T.);
#121=EDGE_CURVE('',#101,#102,#57,.T.);
#122=EDGE_CURVE('',#102,#100,#58,.T.);
#123=EDGE_CURVE('',#103,#104,#59,.T.);
#124=EDGE_CURVE('',#105,#103,#60,.T.);
#125=EDGE_CURVE('',#106,#105,#61,.T.);
#126=EDGE_CURVE('',#104,#106,#62,.T.);
#127=EDGE_CURVE('',#104,#107,#63,.T.);
#128=EDGE_CURVE('',#108,#107,#64,.T.);
#129=EDGE_CURVE('',#103,#108,#65,.T.);
#130=EDGE_CURVE('',#105,#109,#66,.T.);
#131=EDGE_CURVE('',#109,#108,#67,.T.);
#132=EDGE_CURVE('',#106,#110,#68,.T.);
#133=EDGE_CURVE('',#107,#110,#69,.T.);
#134=EDGE_CURVE('',#110,#109,#70,.T.);
#135=ORIENTED_EDGE('',*,*,#111,.F.);
#136=ORIENTED_EDGE('',*,*,#112,.F.);
#137=ORIENTED_EDGE('',*,*,#113,.F.);
#138=ORIENTED_EDGE('',*,*,#114,.F.);
#139=ORIENTED_EDGE('',*,*,#113,.T.);
#140=ORIENTED_EDGE('',*,*,#115,.T.);
#141=ORIENTED_EDGE('',*,*,#116,.F.);
#142=ORIENTED_EDGE('',*,*,#117,.F.);
#143=ORIENTED_EDGE('',*,*,#112,.T.);
#144=ORIENTED_EDGE('',*,*,#118,.T.);
#145=ORIENTED_EDGE('',*,*,#119,.F.);
#146=ORIENTED_EDGE('',*,*,#115,.F.);
#147=ORIENTED_EDGE('',*,*,#111,.T.);
#148=ORIENTED_EDGE('',*,*,#120,.F.);
#149=ORIENTED_EDGE('',*,*,#121,.F.);
#150=ORIENTED_EDGE('',*,*,#118,.F.);
#151=ORIENTED_EDGE('',*,*,#114,.T.);
#152=ORIENTED_EDGE('',*,*,#117,.T.);
#153=ORIENTED_EDGE('',*,*,#122,.F.);
#154=ORIENTED_EDGE('',*,*,#120,.T.);
#155=ORIENTED_EDGE('',*,*,#122,.T.);
#156=ORIENTED_EDGE('',*,*,#116,.T.);
#157=ORIENTED_EDGE('',*,*,#119,.T.);
#158=ORIENTED_EDGE('',*,*,#121,.T.);
#159=ORIENTED_EDGE('',*,*,#123,.F.);
#160=ORIENTED_EDGE('',*,*,#124,.F.);
#161=ORIENTED_EDGE('',*,*,#125,.F.);
#162=ORIENTED_EDGE('',*,*,#126,.F.);
#163=ORIENTED_EDGE('',*,*,#123,.T.);
#164=ORIENTED_EDGE('',*,*,#127,.T.);
#165=ORIENTED_EDGE('',*,*,#128,.F.);
#166=ORIENTED_EDGE('',*,*,#129,.F.);
#167=ORIENTED_EDGE('',*,*,#130,.F.);
#168=ORIENTED_EDGE('',*,*,#124,.T.);
#169=ORIENTED_EDGE('',*,*,#129,.T.);
#170=ORIENTED_EDGE('',*,*,#131,.F.);
#171=ORIENTED_EDGE('',*,*,#126,.T.);
#172=ORIENTED_EDGE('',*,*,#132,.T.);
#173=ORIENTED_EDGE('',*,*,#133,.F.);
#174=ORIENTED_EDGE('',*,*,#127,.F.);
#175=ORIENTED_EDGE('',*,*,#128,.T.);
#176=ORIENTED_EDGE('',*,*,#133,.T.);
#177=ORIENTED_EDGE('',*,*,#134,.T.);
#178=ORIENTED_EDGE('',*,*,#131,.T.);
#179=ORIENTED_EDGE('',*,*,#130,.T.);
#180=ORIENTED_EDGE('',*,*,#134,.F.);
#181=ORIENTED_EDGE('',*,*,#132,.F.);
#182=ORIENTED_EDGE('',*,*,#125,.T.);
#183=PLANE('',#223);
#184=PLANE('',#224);
#185=PLANE('',#225);
#186=PLANE('',#226);
#187=PLANE('',#227);
#188=PLANE('',#228);
#189=PLANE('',#229);
#190=PLANE('',#230);
#191=PLANE('',#231);
#192=PLANE('',#232);
#193=PLANE('',#233);
#194=PLANE('',#234);
#195=ADVANCED_FACE('',(#23),#183,.F.);
#196=ADVANCED_FACE('',(#24),#184,.T.);
#197=ADVANCED_FACE('',(#25),#185,.T.);
#198=ADVANCED_FACE('',(#26),#186,.T.);
#199=ADVANCED_FACE('',(#27),#187,.T.);
#200=ADVANCED_FACE('',(#28),#188,.T.);
#201=ADVANCED_FACE('',(#29),#189,.F.);
#202=ADVANCED_FACE('',(#30),#190,.T.);
#203=ADVANCED_FACE('',(#31),#191,.T.);
#204=ADVANCED_FACE('',(#32),#192,.T.);
#205=ADVANCED_FACE('',(#33),#193,.T.);
#206=ADVANCED_FACE('',(#34),#194,.T.);
#207=CLOSED_SHELL('',(#195,#196,#197,#198,#199,#200));
#208=CLOSED_SHELL('',(#201,#202,#203,#204,#205,#206));
#209=DERIVED_UNIT_ELEMENT(#211,1.);
#210=DERIVED_UNIT_ELEMENT(#352,-3.);
#211=(
MASS_UNIT()
NAMED_UNIT(*)
SI_UNIT(.KILO.,.GRAM.)
);
#212=DERIVED_UNIT((#209,#210));
#213=MEASURE_REPRESENTATION_ITEM('density measure',
POSITIVE_RATIO_MEASURE(7850.),#212);
#214=PROPERTY_DEFINITION_REPRESENTATION(#219,#216);
#215=PROPERTY_DEFINITION_REPRESENTATION(#220,#217);
#216=REPRESENTATION('material name',(#218),#349);
#217=REPRESENTATION('density',(#213),#349);
#218=DESCRIPTIVE_REPRESENTATION_ITEM('Stahl','Stahl');
#219=PROPERTY_DEFINITION('material property','material name',#364);
#220=PROPERTY_DEFINITION('material property','density of part',#364);
#221=AXIS2_PLACEMENT_3D('',#290,#236,#237);
#222=AXIS2_PLACEMENT_3D('',#291,#238,#239);
#223=AXIS2_PLACEMENT_3D('',#292,#240,#241);
#224=AXIS2_PLACEMENT_3D('',#301,#246,#247);
#225=AXIS2_PLACEMENT_3D('',#307,#251,#252);
#226=AXIS2_PLACEMENT_3D('',#311,#255,#256);
#227=AXIS2_PLACEMENT_3D('',#315,#259,#260);
#228=AXIS2_PLACEMENT_3D('',#317,#262,#263);
#229=AXIS2_PLACEMENT_3D('',#318,#264,#265);
#230=AXIS2_PLACEMENT_3D('',#327,#270,#271);
#231=AXIS2_PLACEMENT_3D('',#333,#275,#276);
#232=AXIS2_PLACEMENT_3D('',#337,#279,#280);
#233=AXIS2_PLACEMENT_3D('',#341,#283,#284);
#234=AXIS2_PLACEMENT_3D('',#343,#286,#287);
#235=AXIS2_PLACEMENT_3D('',#344,#288,#289);
#236=DIRECTION('axis',(0.,0.,1.));
#237=DIRECTION('refdir',(1.,0.,0.));
#238=DIRECTION('axis',(0.,0.,1.));
#239=DIRECTION('refdir',(1.,0.,0.));
#240=DIRECTION('center_axis',(4.99600361081317E-16,1.22464679914733E-16,
-1.));
#241=DIRECTION('ref_axis',(-1.,0.,-4.99600361081317E-16));
#242=DIRECTION('',(7.4662498406042E-15,1.,1.22464679914737E-16));
#243=DIRECTION('',(-1.,7.4662498406042E-15,-4.99600361081316E-16));
#244=DIRECTION('',(-7.4662498406042E-15,-1.,-1.22464679914737E-16));
#245=DIRECTION('',(1.,-7.4662498406042E-15,4.99600361081316E-16));
#246=DIRECTION('center_axis',(1.,-7.4662498406042E-15,4.99600361081316E-16));
#247=DIRECTION('ref_axis',(-7.4662498406042E-15,-1.,-1.22464679914737E-16));
#248=DIRECTION('',(4.99600361081317E-16,1.22464679914733E-16,-1.));
#249=DIRECTION('',(-7.4662498406042E-15,-1.,-1.22464679914737E-16));
#250=DIRECTION('',(4.99600361081317E-16,1.22464679914733E-16,-1.));
#251=DIRECTION('center_axis',(-7.4662498406042E-15,-1.,-1.22464679914737E-16));
#252=DIRECTION('ref_axis',(-1.,7.4662498406042E-15,-4.99600361081316E-16));
#253=DIRECTION('',(4.99600361081317E-16,1.22464679914733E-16,-1.));
#254=DIRECTION('',(-1.,7.4662498406042E-15,-4.99600361081316E-16));
#255=DIRECTION('center_axis',(-1.,7.4662498406042E-15,-4.99600361081316E-16));
#256=DIRECTION('ref_axis',(7.4662498406042E-15,1.,1.22464679914737E-16));
#257=DIRECTION('',(-4.99600361081317E-16,-1.22464679914733E-16,1.));
#258=DIRECTION('',(7.4662498406042E-15,1.,1.22464679914737E-16));
#259=DIRECTION('center_axis',(7.4662498406042E-15,1.,1.22464679914737E-16));
#260=DIRECTION('ref_axis',(1.,-7.4662498406042E-15,4.99600361081316E-16));
#261=DIRECTION('',(1.,-7.4662498406042E-15,4.99600361081316E-16));
#262=DIRECTION('center_axis',(4.99600361081317E-16,1.22464679914733E-16,
-1.));
#263=DIRECTION('ref_axis',(1.,-7.4662498406042E-15,4.99600361081316E-16));
#264=DIRECTION('center_axis',(-7.4662498406042E-15,-1.,-1.22464679914737E-16));
#265=DIRECTION('ref_axis',(1.,-7.4662498406042E-15,4.99600361081316E-16));
#266=DIRECTION('',(4.99600361081317E-16,1.22464679914733E-16,-1.));
#267=DIRECTION('',(-1.,7.4662498406042E-15,-4.99600361081316E-16));
#268=DIRECTION('',(-4.99600361081317E-16,-1.22464679914733E-16,1.));
#269=DIRECTION('',(1.,-7.4662498406042E-15,4.99600361081316E-16));
#270=DIRECTION('center_axis',(-1.,7.4662498406042E-15,-4.99600361081316E-16));
#271=DIRECTION('ref_axis',(4.99600361081317E-16,1.22464679914734E-16,-1.));
#272=DIRECTION('',(-7.4662498406042E-15,-1.,-1.22464679914737E-16));
#273=DIRECTION('',(4.99600361081317E-16,1.22464679914733E-16,-1.));
#274=DIRECTION('',(-7.4662498406042E-15,-1.,-1.22464679914737E-16));
#275=DIRECTION('center_axis',(-4.99600361081317E-16,-1.22464679914733E-16,
1.));
#276=DIRECTION('ref_axis',(-1.,7.4662498406042E-15,-4.99600361081316E-16));
#277=DIRECTION('',(-7.4662498406042E-15,-1.,-1.22464679914737E-16));
#278=DIRECTION('',(-1.,7.4662498406042E-15,-4.99600361081316E-16));
#279=DIRECTION('center_axis',(4.99600361081317E-16,1.22464679914733E-16,
-1.));
#280=DIRECTION('ref_axis',(1.,-7.4662498406042E-15,4.99600361081316E-16));
#281=DIRECTION('',(-7.4662498406042E-15,-1.,-1.22464679914737E-16));
#282=DIRECTION('',(1.,-7.4662498406042E-15,4.99600361081316E-16));
#283=DIRECTION('center_axis',(-7.4662498406042E-15,-1.,-1.22464679914737E-16));
#284=DIRECTION('ref_axis',(1.,-7.4662498406042E-15,4.99600361081316E-16));
#285=DIRECTION('',(-4.99600361081317E-16,-1.22464679914733E-16,1.));
#286=DIRECTION('center_axis',(1.,-7.4662498406042E-15,4.99600361081316E-16));
#287=DIRECTION('ref_axis',(-4.99600361081317E-16,-1.22464679914734E-16,
1.));
#288=DIRECTION('',(0.,0.,1.));
#289=DIRECTION('',(1.,0.,0.));
#290=CARTESIAN_POINT('',(0.,0.,0.));
#291=CARTESIAN_POINT('',(0.,0.,0.));
#292=CARTESIAN_POINT('Origin',(1.22957199977238E-14,-0.00072427036312953,
-33.2009298652865));
#293=CARTESIAN_POINT('',(-3.00000000000077,-105.000724270363,-33.2009298652865));
#294=CARTESIAN_POINT('',(-2.9999999999992,104.999275729637,-33.2009298652864));
#295=CARTESIAN_POINT('',(-3.00000000000038,-52.5007242703631,-33.2009298652865));
#296=CARTESIAN_POINT('',(2.99999999999923,-105.000724270363,-33.2009298652865));
#297=CARTESIAN_POINT('',(1.49999999999923,-105.000724270363,-33.2009298652865));
#298=CARTESIAN_POINT('',(3.0000000000008,104.999275729637,-33.2009298652864));
#299=CARTESIAN_POINT('',(3.0000000000004,52.4992757296368,-33.2009298652864));
#300=CARTESIAN_POINT('',(-1.4999999999992,104.999275729637,-33.2009298652864));
#301=CARTESIAN_POINT('Origin',(3.0000000000008,104.999275729637,-33.2009298652864));
#302=CARTESIAN_POINT('',(2.99999999999928,-105.000724270363,-138.200929865286));
#303=CARTESIAN_POINT('',(2.99999999999923,-105.000724270363,-33.2009298652865));
#304=CARTESIAN_POINT('',(3.00000000000085,104.999275729637,-138.200929865286));
#305=CARTESIAN_POINT('',(2.99999999999928,-105.000724270363,-138.200929865286));
#306=CARTESIAN_POINT('',(3.0000000000008,104.999275729637,-33.2009298652864));
#307=CARTESIAN_POINT('Origin',(2.99999999999923,-105.000724270363,-33.2009298652865));
#308=CARTESIAN_POINT('',(-3.00000000000072,-105.000724270363,-138.200929865286));
#309=CARTESIAN_POINT('',(-3.00000000000077,-105.000724270363,-33.2009298652865));
#310=CARTESIAN_POINT('',(-3.00000000000072,-105.000724270363,-138.200929865286));
#311=CARTESIAN_POINT('Origin',(-3.00000000000077,-105.000724270363,-33.2009298652865));
#312=CARTESIAN_POINT('',(-2.99999999999915,104.999275729637,-138.200929865286));
#313=CARTESIAN_POINT('',(-2.9999999999992,104.999275729637,-33.2009298652864));
#314=CARTESIAN_POINT('',(-2.99999999999915,104.999275729637,-138.200929865286));
#315=CARTESIAN_POINT('Origin',(-2.9999999999992,104.999275729637,-33.2009298652864));
#316=CARTESIAN_POINT('',(3.00000000000085,104.999275729637,-138.200929865286));
#317=CARTESIAN_POINT('Origin',(6.46982467600306E-14,-0.000724270363108655,
-138.200929865286));
#318=CARTESIAN_POINT('Origin',(8.10088107705556E-13,108.499275729637,-8.70092986528644));
#319=CARTESIAN_POINT('',(-20.9999999999992,108.499275729637,15.7990701347135));
#320=CARTESIAN_POINT('',(-20.9999999999992,108.499275729637,-33.2009298652865));
#321=CARTESIAN_POINT('',(-20.9999999999992,108.499275729637,15.7990701347135));
#322=CARTESIAN_POINT('',(21.0000000000008,108.499275729637,15.7990701347136));
#323=CARTESIAN_POINT('',(21.0000000000008,108.499275729637,15.7990701347136));
#324=CARTESIAN_POINT('',(21.0000000000008,108.499275729637,-33.2009298652864));
#325=CARTESIAN_POINT('',(21.0000000000008,108.499275729637,-33.2009298652864));
#326=CARTESIAN_POINT('',(-20.9999999999992,108.499275729637,-33.2009298652865));
#327=CARTESIAN_POINT('Origin',(-20.9999999999992,108.499275729637,15.7990701347135));
#328=CARTESIAN_POINT('',(-21.0000000000008,-108.500724270363,-33.2009298652865));
#329=CARTESIAN_POINT('',(-20.9999999999992,108.499275729637,-33.2009298652865));
#330=CARTESIAN_POINT('',(-21.0000000000008,-108.500724270363,15.7990701347135));
#331=CARTESIAN_POINT('',(-21.0000000000008,-108.500724270363,15.7990701347135));
#332=CARTESIAN_POINT('',(-20.9999999999992,108.499275729637,15.7990701347135));
#333=CARTESIAN_POINT('Origin',(21.0000000000008,108.499275729637,15.7990701347136));
#334=CARTESIAN_POINT('',(20.9999999999992,-108.500724270363,15.7990701347135));
#335=CARTESIAN_POINT('',(21.0000000000008,108.499275729637,15.7990701347136));
#336=CARTESIAN_POINT('',(20.9999999999992,-108.500724270363,15.7990701347135));
#337=CARTESIAN_POINT('Origin',(-20.9999999999992,108.499275729637,-33.2009298652865));
#338=CARTESIAN_POINT('',(20.9999999999992,-108.500724270363,-33.2009298652865));
#339=CARTESIAN_POINT('',(21.0000000000008,108.499275729637,-33.2009298652864));
#340=CARTESIAN_POINT('',(-21.0000000000008,-108.500724270363,-33.2009298652865));
#341=CARTESIAN_POINT('Origin',(-8.10088107705556E-13,-108.500724270363,
-8.70092986528647));
#342=CARTESIAN_POINT('',(20.9999999999992,-108.500724270363,-33.2009298652865));
#343=CARTESIAN_POINT('Origin',(21.0000000000008,108.499275729637,-33.2009298652864));
#344=CARTESIAN_POINT('',(0.,0.,0.));
#345=UNCERTAINTY_MEASURE_WITH_UNIT(LENGTH_MEASURE(0.01),#351,
'DISTANCE_ACCURACY_VALUE',
'Maximum model space distance between geometric entities at asserted c
onnectivities');
#346=UNCERTAINTY_MEASURE_WITH_UNIT(LENGTH_MEASURE(0.01),#351,
'DISTANCE_ACCURACY_VALUE',
'Maximum model space distance between geometric entities at asserted c
onnectivities');
#347=UNCERTAINTY_MEASURE_WITH_UNIT(LENGTH_MEASURE(0.01),#351,
'DISTANCE_ACCURACY_VALUE',
'Maximum model space distance between geometric entities at asserted c
onnectivities');
#348=(
GEOMETRIC_REPRESENTATION_CONTEXT(3)
GLOBAL_UNCERTAINTY_ASSIGNED_CONTEXT((#345))
GLOBAL_UNIT_ASSIGNED_CONTEXT((#351,#353,#354))
REPRESENTATION_CONTEXT('','3D')
);
#349=(
GEOMETRIC_REPRESENTATION_CONTEXT(3)
GLOBAL_UNCERTAINTY_ASSIGNED_CONTEXT((#346))
GLOBAL_UNIT_ASSIGNED_CONTEXT((#351,#353,#354))
REPRESENTATION_CONTEXT('','3D')
);
#350=(
GEOMETRIC_REPRESENTATION_CONTEXT(3)
GLOBAL_UNCERTAINTY_ASSIGNED_CONTEXT((#347))
GLOBAL_UNIT_ASSIGNED_CONTEXT((#351,#353,#354))
REPRESENTATION_CONTEXT('','3D')
);
#351=(
LENGTH_UNIT()
NAMED_UNIT(*)
SI_UNIT(.MILLI.,.METRE.)
);
#352=(
LENGTH_UNIT()
NAMED_UNIT(*)
SI_UNIT($,.METRE.)
);
#353=(
NAMED_UNIT(*)
PLANE_ANGLE_UNIT()
SI_UNIT($,.RADIAN.)
);
#354=(
NAMED_UNIT(*)
SI_UNIT($,.STERADIAN.)
SOLID_ANGLE_UNIT()
);
#355=SHAPE_DEFINITION_REPRESENTATION(#357,#360);
#356=SHAPE_DEFINITION_REPRESENTATION(#358,#361);
#357=PRODUCT_DEFINITION_SHAPE('',$,#363);
#358=PRODUCT_DEFINITION_SHAPE('',$,#364);
#359=PRODUCT_DEFINITION_SHAPE($,$,#14);
#360=SHAPE_REPRESENTATION('',(#221,#235),#348);
#361=SHAPE_REPRESENTATION('',(#222),#349);
#362=PRODUCT_DEFINITION_CONTEXT('part definition',#370,'design');
#363=PRODUCT_DEFINITION('SK_simple','SK_simple v2',#365,#362);
#364=PRODUCT_DEFINITION('Scheibe','Scheibe',#366,#362);
#365=PRODUCT_DEFINITION_FORMATION('',$,#372);
#366=PRODUCT_DEFINITION_FORMATION('',$,#373);
#367=PRODUCT_RELATED_PRODUCT_CATEGORY('SK_simple v2','SK_simple v2',(#372));
#368=PRODUCT_RELATED_PRODUCT_CATEGORY('Scheibe','Scheibe',(#373));
#369=APPLICATION_PROTOCOL_DEFINITION('international standard',
'automotive_design',2009,#370);
#370=APPLICATION_CONTEXT(
'Core Data for Automotive Mechanical Design Process');
#371=PRODUCT_CONTEXT('part definition',#370,'mechanical');
#372=PRODUCT('SK_simple','SK_simple v2',$,(#371));
#373=PRODUCT('Scheibe','Scheibe',$,(#371));
#374=PRESENTATION_STYLE_ASSIGNMENT((#377));
#375=PRESENTATION_STYLE_ASSIGNMENT((#378));
#376=PRESENTATION_STYLE_ASSIGNMENT((#379));
#377=SURFACE_STYLE_USAGE(.BOTH.,#380);
#378=SURFACE_STYLE_USAGE(.BOTH.,#381);
#379=SURFACE_STYLE_USAGE(.BOTH.,#382);
#380=SURFACE_SIDE_STYLE('',(#383));
#381=SURFACE_SIDE_STYLE('',(#384));
#382=SURFACE_SIDE_STYLE('',(#385));
#383=SURFACE_STYLE_FILL_AREA(#386);
#384=SURFACE_STYLE_FILL_AREA(#387);
#385=SURFACE_STYLE_FILL_AREA(#388);
#386=FILL_AREA_STYLE('Stahl - satiniert',(#389));
#387=FILL_AREA_STYLE('Kunststoff - matt (Wei\X\DF)',(#390));
#388=FILL_AREA_STYLE('Polykarbonat (klar)',(#391));
#389=FILL_AREA_STYLE_COLOUR('Stahl - satiniert',#392);
#390=FILL_AREA_STYLE_COLOUR('Kunststoff - matt (Wei\X\DF)',#393);
#391=FILL_AREA_STYLE_COLOUR('Polykarbonat (klar)',#394);
#392=COLOUR_RGB('Stahl - satiniert',0.627450980392157,0.627450980392157,
0.627450980392157);
#393=COLOUR_RGB('Kunststoff - matt (Wei\X\DF)',0.964705882352941,0.964705882352941,
0.952941176470588);
#394=COLOUR_RGB('Polykarbonat (klar)',0.964705882352941,0.964705882352941,
0.952941176470588);
ENDSEC;
END-ISO-10303-21;
